  0
SECTION
  2
HEADER
  9
$ACADVER
  1
AC1009
  9
$INSBASE
 10
11.79531131519083
 20
15.60064425177447
 30
0.0
  9
$EXTMIN
 10
11.79531131519083
 20
15.60064425177447
 30
0.0
  9
$EXTMAX
 10
72.03136573839614
 20
29.44283400908877
 30
0.0
  9
$LIMMIN
 10
0.0
 20
0.0
  9
$LIMMAX
 10
420.0
 20
297.0
  9
$ORTHOMODE
 70
     0
  9
$REGENMODE
 70
     0
  9
$FILLMODE
 70
     1
  9
$QTEXTMODE
 70
     0
  9
$MIRRTEXT
 70
     0
  9
$DRAGMODE
 70
     2
  9
$LTSCALE
 40
1.0
  9
$OSMODE
 70
     0
  9
$ATTMODE
 70
     1
  9
$TEXTSIZE
 40
3.5
  9
$TRACEWID
 40
0.1
  9
$TEXTSTYLE
  7
STANDARD
  9
$CLAYER
  8
0
  9
$CELTYPE
  6
BYLAYER
  9
$CECOLOR
 62
   256
  9
$DIMSCALE
 40
1.0
  9
$DIMASZ
 40
2.0
  9
$DIMEXO
 40
1.0
  9
$DIMDLI
 40
8.0
  9
$DIMRND
 40
0.0
  9
$DIMDLE
 40
0.0
  9
$DIMEXE
 40
2.0
  9
$DIMTP
 40
0.1
  9
$DIMTM
 40
0.1
  9
$DIMTXT
 40
3.5
  9
$DIMCEN
 40
2.0
  9
$DIMTSZ
 40
0.0
  9
$DIMTOL
 70
     0
  9
$DIMLIM
 70
     0
  9
$DIMTIH
 70
     0
  9
$DIMTOH
 70
     0
  9
$DIMSE1
 70
     0
  9
$DIMSE2
 70
     0
  9
$DIMTAD
 70
     1
  9
$DIMZIN
 70
     0
  9
$DIMBLK
  1

  9
$DIMASO
 70
     1
  9
$DIMSHO
 70
     0
  9
$DIMPOST
  1

  9
$DIMAPOST
  1

  9
$DIMALT
 70
     0
  9
$DIMALTD
 70
     2
  9
$DIMALTF
 40
25.39999999999999
  9
$DIMLFAC
 40
1.0
  9
$DIMTOFL
 70
     0
  9
$DIMTVP
 40
0.0
  9
$DIMTIX
 70
     0
  9
$DIMSOXD
 70
     0
  9
$DIMSAH
 70
     0
  9
$DIMBLK1
  1

  9
$DIMBLK2
  1

  9
$DIMSTYLE
  2
*UNNAMED
  9
$DIMCLRD
 70
     0
  9
$DIMCLRE
 70
     0
  9
$DIMCLRT
 70
     0
  9
$DIMTFAC
 40
1.0
  9
$DIMGAP
 40
0.09
  9
$LUNITS
 70
     2
  9
$LUPREC
 70
     3
  9
$SKETCHINC
 40
0.1
  9
$FILLETRAD
 40
20.0
  9
$AUNITS
 70
     0
  9
$AUPREC
 70
     1
  9
$MENU
  1

  9
$ELEVATION
 40
0.0
  9
$PELEVATION
 40
0.0
  9
$THICKNESS
 40
0.0
  9
$LIMCHECK
 70
     0
  9
$BLIPMODE
 70
     0
  9
$CHAMFERA
 40
0.0
  9
$CHAMFERB
 40
0.0
  9
$SKPOLY
 70
     1
  9
$TDCREATE
 40
2448875.635243750
  9
$TDUPDATE
 40
2449393.454472106
  9
$TDINDWG
 40
0.0003387731
  9
$TDUSRTIMER
 40
0.0003387731
  9
$USRTIMER
 70
     1
  9
$ANGBASE
 50
0.0
  9
$ANGDIR
 70
     0
  9
$PDMODE
 70
     0
  9
$PDSIZE
 40
0.0
  9
$PLINEWID
 40
0.0
  9
$COORDS
 70
     2
  9
$SPLFRAME
 70
     0
  9
$SPLINETYPE
 70
     6
  9
$SPLINESEGS
 70
     8
  9
$ATTDIA
 70
     1
  9
$ATTREQ
 70
     1
  9
$HANDLING
 70
     0
  9
$HANDSEED
  5
53
  9
$SURFTAB1
 70
     6
  9
$SURFTAB2
 70
     6
  9
$SURFTYPE
 70
     6
  9
$SURFU
 70
     6
  9
$SURFV
 70
     6
  9
$UCSNAME
  2

  9
$UCSORG
 10
0.0
 20
0.0
 30
0.0
  9
$UCSXDIR
 10
1.0
 20
0.0
 30
0.0
  9
$UCSYDIR
 10
0.0
 20
1.0
 30
0.0
  9
$PUCSNAME
  2

  9
$PUCSORG
 10
0.0
 20
0.0
 30
0.0
  9
$PUCSXDIR
 10
1.0
 20
0.0
 30
0.0
  9
$PUCSYDIR
 10
0.0
 20
1.0
 30
0.0
  9
$USERI1
 70
     0
  9
$USERI2
 70
     3
  9
$USERI3
 70
    15
  9
$USERI4
 70
     0
  9
$USERI5
 70
     0
  9
$USERR1
 40
1.0
  9
$USERR2
 40
1.0
  9
$USERR3
 40
0.0
  9
$USERR4
 40
1.0
  9
$USERR5
 40
0.0
  9
$WORLDVIEW
 70
     1
  9
$SHADEDGE
 70
     3
  9
$SHADEDIF
 70
    70
  9
$TILEMODE
 70
     1
  9
$MAXACTVP
 70
    16
  9
$PINSBASE
 10
0.0
 20
0.0
 30
0.0
  9
$PLIMCHECK
 70
     0
  9
$PEXTMIN
 10
1.000000000000000E+20
 20
1.000000000000000E+20
 30
1.000000000000000E+20
  9
$PEXTMAX
 10
-1.000000000000000E+20
 20
-1.000000000000000E+20
 30
-1.000000000000000E+20
  9
$PLIMMIN
 10
0.0
 20
0.0
  9
$PLIMMAX
 10
12.0
 20
9.0
  9
$UNITMODE
 70
     0
  9
$VISRETAIN
 70
     0
  9
$PLINEGEN
 70
     0
  9
$PSLTSCALE
 70
     0
  9
$TREEDEPTH
 70
  3020
  9
$DWGCODEPAGE
  3
undefined
  0
ENDSEC
  0
SECTION
  2
TABLES
  0
TABLE
  2
VPORT
 70
     2
  0
VPORT
  2
*ACTIVE
 70
     0
 10
0.0
 20
0.0
 11
1.0
 21
1.0
 12
41.91333852679349
 22
39.21011473544605
 13
0.0
 23
0.0
 14
1.0
 24
1.0
 15
10.0
 25
10.0
 16
0.0
 26
0.0
 36
1.0
 17
0.0
 27
0.0
 37
0.0
 40
47.21894096734315
 41
1.275675675675675
 42
50.0
 43
0.0
 44
0.0
 50
0.0
 51
0.0
 71
     0
 72
   100
 73
     1
 74
     0
 75
     0
 76
     0
 77
     0
 78
     0
  0
ENDTAB
  0
TABLE
  2
LTYPE
 70
     3
  0
LTYPE
  2
AUSGEZOGEN
 70
    64
  3
Solid line
 72
    65
 73
     0
 40
0.0
  0
LTYPE
  2
ITEM-STRICH
 70
    64
  3
- - - - -
 72
    65
 73
     2
 40
1.5
 49
1.2
 49
-0.3
  0
LTYPE
  2
ITEM-STRICHPUNKT
 70
    64
  3
__ . __ . __
 72
    65
 73
     4
 40
3.599999999999999
 49
2.399999999999999
 49
-0.6
 49
0.0
 49
-0.6
  0
ENDTAB
  0
TABLE
  2
LAYER
 70
     5
  0
LAYER
  2
0
 70
     0
 62
     7
  6
AUSGEZOGEN
  0
LAYER
  2
ITEM_50
 70
    64
 62
     7
  6
AUSGEZOGEN
  0
LAYER
  2
ITEM_25
 70
    64
 62
     3
  6
AUSGEZOGEN
  0
LAYER
  2
ITEM_STP
 70
    64
 62
     4
  6
ITEM-STRICHPUNKT
  0
LAYER
  2
ITEM_GSTR
 70
    64
 62
     6
  6
ITEM-STRICH
  0
ENDTAB
  0
TABLE
  2
STYLE
 70
     1
  0
STYLE
  2
STANDARD
 70
     0
 40
0.0
 41
1.0
 50
0.0
 71
     0
 42
3.5
  3
iso
  4

  0
ENDTAB
  0
TABLE
  2
VIEW
 70
     0
  0
ENDTAB
  0
TABLE
  2
UCS
 70
     0
  0
ENDTAB
  0
TABLE
  2
APPID
 70
     1
  0
APPID
  2
ACAD
 70
    64
  0
ENDTAB
  0
TABLE
  2
DIMSTYLE
 70
     0
  0
ENDTAB
  0
ENDSEC
  0
SECTION
  2
BLOCKS
  0
ENDSEC
  0
SECTION
  2
ENTITIES
  0
LINE
  8
ITEM_STP
 10
65.11027085973898
 20
22.52173913043162
 30
0.0
 11
65.11027085973898
 21
15.60064425177447
 31
0.0
  0
LINE
  8
ITEM_STP
 10
65.11027085973898
 20
22.52173913043162
 30
0.0
 11
58.18917598108183
 21
22.52173913043162
 31
0.0
  0
LINE
  8
ITEM_STP
 10
65.11027085973898
 20
22.52173913043162
 30
0.0
 11
65.11027085973898
 21
29.44283400908877
 31
0.0
  0
LINE
  8
ITEM_STP
 10
65.11027085973898
 20
22.52173913043162
 30
0.0
 11
72.03136573839614
 21
22.52173913043162
 31
0.0
  0
CIRCLE
  8
ITEM_50
 10
65.11027085973898
 20
22.52173913043162
 30
0.0
 40
5.25
  0
CIRCLE
  8
ITEM_50
 10
65.11027085973898
 20
22.52173913043162
 30
0.0
 40
2.5
  0
LINE
  8
ITEM_50
 10
63.95557032135973
 20
24.52173913043162
 30
0.0
 11
62.80086978298048
 21
22.52173913043162
 31
0.0
  0
LINE
  8
ITEM_50
 10
62.80086978298048
 20
22.52173913043162
 30
0.0
 11
63.95557032135973
 21
20.52173913043162
 31
0.0
  0
LINE
  8
ITEM_50
 10
63.95557032135973
 20
20.52173913043162
 30
0.0
 11
66.26497139811823
 21
20.52173913043162
 31
0.0
  0
LINE
  8
ITEM_50
 10
66.26497139811823
 20
20.52173913043162
 30
0.0
 11
67.41967193649749
 21
22.52173913043162
 31
0.0
  0
LINE
  8
ITEM_50
 10
67.41967193649749
 20
22.52173913043162
 30
0.0
 11
66.26497139811824
 21
24.52173913043162
 31
0.0
  0
LINE
  8
ITEM_50
 10
66.26497139811824
 20
24.52173913043162
 30
0.0
 11
63.95557032135973
 21
24.52173913043162
 31
0.0
  0
LINE
  8
ITEM_STP
 10
11.79531131519083
 20
22.52173913043478
 30
0.0
 11
55.09531131519083
 21
22.52173913043478
 31
0.0
  0
LINE
  8
ITEM_50
 10
49.39531131519084
 20
25.52173913043165
 30
0.0
 11
20.82258404246355
 21
25.52173913043165
 31
0.0
  0
LINE
  8
ITEM_50
 10
50.09531131519083
 20
24.82173913043166
 30
0.0
 11
49.39531131519084
 21
25.52173913043165
 31
0.0
  0
LINE
  8
ITEM_50
 10
50.09531131519083
 20
22.52173913043165
 30
0.0
 11
50.09531131519083
 21
24.82173913043166
 31
0.0
  0
LINE
  8
ITEM_50
 10
50.09531131519083
 20
20.22173913043164
 30
0.0
 11
50.09531131519083
 21
22.52173913043165
 31
0.0
  0
LINE
  8
ITEM_50
 10
49.39531131519084
 20
19.52173913043165
 30
0.0
 11
50.09531131519083
 21
20.22173913043164
 31
0.0
  0
LINE
  8
ITEM_50
 10
20.82258404246355
 20
19.52173913043165
 30
0.0
 11
49.39531131519084
 21
19.52173913043165
 31
0.0
  0
LINE
  8
ITEM_50
 10
20.82258404246355
 20
25.52173913043165
 30
0.0
 11
20.09531131519083
 21
25.92223294712485
 31
0.0
  0
LINE
  8
ITEM_50
 10
20.82258404246355
 20
19.52173913043165
 30
0.0
 11
20.09531131519083
 21
19.1173173009742
 31
0.0
  0
LINE
  8
ITEM_25
 10
20.82258404246355
 20
19.52173913043165
 30
0.0
 11
22.09531131519083
 21
20.22173913043164
 31
0.0
  0
LINE
  8
ITEM_25
 10
20.82258404246355
 20
25.52173913043165
 30
0.0
 11
22.09531131519083
 21
24.82173913043166
 31
0.0
  0
LINE
  8
ITEM_25
 10
50.09531131519083
 20
20.22173913043164
 30
0.0
 11
22.09531131519083
 21
20.22173913043164
 31
0.0
  0
LINE
  8
ITEM_25
 10
50.09531131519083
 20
24.82173913043166
 30
0.0
 11
22.09531131519083
 21
24.82173913043166
 31
0.0
  0
LINE
  8
ITEM_50
 10
22.09531131519083
 20
25.52173913043165
 30
0.0
 11
22.09531131519083
 21
19.52173913043165
 31
0.0
  0
LINE
  8
ITEM_50
 10
49.39531131519084
 20
19.52173913043165
 30
0.0
 11
49.39531131519084
 21
25.52173913043165
 31
0.0
  0
LINE
  8
ITEM_50
 10
16.79531131519397
 20
20.02173913043483
 30
0.0
 11
16.79531131519397
 21
25.02173913043478
 31
0.0
  0
ARC
  8
ITEM_50
 10
21.95418963910555
 20
22.84321338143035
 30
0.0
 40
5.599999999999999
 50
118.3463093634216
 51
157.1063126245345
  0
ARC
  8
ITEM_50
 10
21.95418963910555
 20
22.20026487943923
 30
0.0
 40
5.599999999999999
 50
202.8936873754653
 51
241.6536906365782
  0
LINE
  8
ITEM_50
 10
16.79531131519397
 20
20.02173913043483
 30
0.0
 11
16.79531131519397
 21
25.02173913043478
 31
0.0
  0
LINE
  8
ITEM_50
 10
20.09531131519083
 20
17.27173913043478
 30
0.0
 11
19.29531131518769
 21
17.27173913043478
 31
0.0
  0
LINE
  8
ITEM_50
 10
19.29531131518769
 20
17.27173913043478
 30
0.0
 11
19.29531131518769
 21
27.77173913043478
 31
0.0
  0
LINE
  8
ITEM_50
 10
19.29531131518769
 20
27.77173913043478
 30
0.0
 11
20.09531131519083
 21
27.77173913043478
 31
0.0
  0
LINE
  8
ITEM_50
 10
20.09531131519083
 20
27.77173913043478
 30
0.0
 11
20.09531131519083
 21
17.27173913043478
 31
0.0
  0
LINE
  8
ITEM_GSTR
 10
16.79531131519397
 20
20.02173913043165
 30
0.0
 11
19.19531131519398
 21
20.02173913043165
 31
0.0
  0
LINE
  8
ITEM_GSTR
 10
19.19531131519398
 20
20.02173913043165
 30
0.0
 11
19.19531131519398
 21
25.02173913043165
 31
0.0
  0
LINE
  8
ITEM_GSTR
 10
19.19531131519398
 20
25.02173913043165
 30
0.0
 11
16.79531131519397
 21
25.02173913043165
 31
0.0
  0
LINE
  8
ITEM_GSTR
 10
16.79531131519397
 20
21.27173913043165
 30
0.0
 11
19.19531131519398
 21
21.27173913043165
 31
0.0
  0
LINE
  8
ITEM_GSTR
 10
16.79531131519397
 20
23.77173913043165
 30
0.0
 11
19.19531131519398
 21
23.77173913043165
 31
0.0
  0
LINE
  8
ITEM_GSTR
 10
19.19531131519398
 20
20.02173913043165
 30
0.0
 11
20.44531131519398
 21
22.52173913043165
 31
0.0
  0
LINE
  8
ITEM_GSTR
 10
20.44531131519398
 20
22.52173913043165
 30
0.0
 11
19.19531131519398
 21
25.02173913043165
 31
0.0
  0
ENDSEC
  0
EOF
